LEAVING ME BEHIND
     
Tuning: Standard (actually sounds tonally better if you 
detune whole guitar by 2 semitones and capo the 2nd fret)

(the top two strings are very quiet on nick's guitar here; best play
them softly or it'll probably sound too bright)


INTRO

|--------|--------|--------|--------|--------|--------|--------|--------|
|--------|--------|--------|--------|--------|--------|--------|--------|
|--4--4--|--4--4--|--3--3--|--3--3--|--2--2--|--2--2--|--1--1--|--1--1--|
|--------|--------|--------|--------|--------|--------|--------|--------|
|-5--5--5|-5--5--4|-4--4--4|-4--4--3|-3--3--3|-3--3--2|-2--2--2|-2--2--5|
|0--0--0-|0--0--0-|0--0--0-|0--0--0-|0--0--0-|0--0--0-|0--0--0-|0--0--0-|


|-----0--|-----0--|--------|-----0--|--------|--------|--------|--------|
|--------|--------|--------|--------|--------|--------|--------|--------|
|--4-4---|--4-4---|--3--3--|--3-3---|--2--2--|--2--2--|--1--1--|--1--1--|
|--------|--------|--------|--------|--------|--------|--------|--------|
|-5-----5|-5-----4|-4--4--4|-4-----3|-3--3--3|-3--3--2|-2--2--2|-2--2--5|
|0--0--0-|0--0--0-|0--0--0-|0--0--0-|0--0--0-|0--0--0-|0--0--0-|0--0--0-|


VERSE

first two lines as per first half of the intro, ie without the top string variation
(there are some sync variations but i think these are random error)



"for some there's a future..."

 |--------|--------|--------|--------|--------|--------|--------|--------|
 |--------|--------|--------|--------|--------|--------|--------|--------|
 |--2--2--|--2--2--|--2--2--|--2--2--|--1--1--|--2--2--|--1--1--|--1--1--|
 |--------|--------|--------|--------|--------|--------|--------|--------|
4|-4--4--4|-4--4--3|-3--3--3|-3--3--2|-2--2--2|-4--3--3|-2--2--2|-2--2--2|
 |0--0--0-|0--0--0-|0--0--0-|0--0--0-|0--0--0-|0--0--0-|0--0--0-|0--0--0-|

"but i think..."

|----2---|--2-----|--------|0-------|--------|--------|--------|--------| (and
|--3-3--3|--3--3--|--3--2--|---2----|--------|--------|--------|--------| sometimes
|--4----4|-----4--|--------|-----2--|--1--1--|--2--2--|--1--1--|--1--1--| repeat
|-4----4-|-4--4---|-2--2--2|--2---2-|--------|--------|--------|--------| last 2
|2--2-2--|2--2--2-|0--0--0-|-0--0---|-2--2--2|-4--3--3|-2--2--2|-2--2--2|  bars)
|--------|--------|--------|--------|0--0--0-|0--0--0-|0--0--0-|0--0--0-|
   * *  *   *  *


(*- rather than accurate string picks it sounds like an upwards brush of the
strings with ring finger to me)


END

(after last "leaving me behind"):


|--------|--------0-
|--------|----------
|--1--1--|-2--2--1--
|--------|----------
|-2--2--2|-4--3--2--
|0--0--0-|0--0--0--0




Tabbed by Chris Healey